Гаммы для гитары

Гамма – это определенный звукоряд, который повышает эффективность освоения нот, музыкального инструмента, развивает ловкость рук и «укрепляет» музыкальный слух. Многие опытные гитаристы, да и вообще музыканты, часто используют гаммы, как разминку перед основной игрой.

Теперь немного о самом исполнении гамм. Для начала старайтесь играть неспешно, сохраняя при этом ритм. Когда освоитесь и вникните в это дело, полезным будет постепенно ускоряться. При исполнении гамм, играйте всеми пальцами, это позволит выработать их независимость и укрепит мышечную память.

Табулатура гаммы До-Мажор:

E|--------------------------5-7-8-7-5--------------------------|
B|--------------------5-6-8-----------8-6-5--------------------|
G|-----------2-4-5*-7-----------------------7-5*-4-2-----------|
D|-----2-3-5-----------------------------------------5-3-2-----|
A|-3-5-----------------------------------------------------5-3-|
E|-------------------------------------------------------------|
          
          

Табулатура гаммы Ля-минор:

E|------------------------------5-7-8-|
H|------------------------5-6-8-------|
G|--------------------5-7-------------|
D|--------------5-7-9-----------------|
A|--------5-7-8-----------------------|
E|--5-7-8-----------------------------|
          
          

Табулатура гаммы Фа-минор:

E|------------------------------1-3-4-|
H|------------------------1-2-4-------|
G|--------------------1-3-------------|
D|--------------1-3-5-----------------|
A|--------1-3-4-----------------------|
E|--1-3-4-----------------------------|
          
          

Табулатура гаммы Ми-минор:

E|------------------------------0-1-3-|
H|------------------------0-1-3-------|
G|--------------------0-2-------------|
D|--------------0-2-4-----------------|
A|--------0-2-3-----------------------|
E|--0-2-3-----------------------------|
          
          

Это конечно все немного скучно, но если вам интересен такой подход, то имеет смысл начать изучать музыкальную теорию, ибо только так вы сможете оценить всю пользу от музыкальных гамм.

 
buyguitar.narod.ru © 2009-2013 | e-mail: buyguitar@narod.ru
Webdesign by Jens Wolters
Hosted by uCoz